  0
SECTION
  2
HEADER
  9
$ACADVER
  1
AC1009
  9
$INSBASE
 10
0.0
 20
0.0
 30
0.0
  9
$EXTMIN
 10
191.6189990809373
 20
105.8994825951461
 30
0.0
  9
$EXTMAX
 10
261.1989845985395
 20
144.9673616471704
 30
0.0
  9
$LIMMIN
 10
0.0
 20
0.0
  9
$LIMMAX
 10
420.0
 20
297.0
  9
$ORTHOMODE
 70
     1
  9
$REGENMODE
 70
     1
  9
$FILLMODE
 70
     1
  9
$QTEXTMODE
 70
     0
  9
$MIRRTEXT
 70
     0
  9
$DRAGMODE
 70
     2
  9
$LTSCALE
 40
1.0
  9
$OSMODE
 70
    37
  9
$ATTMODE
 70
     2
  9
$TEXTSIZE
 40
0.2
  9
$TRACEWID
 40
0.05
  9
$TEXTSTYLE
  7
STANDARD
  9
$CLAYER
  8
0
  9
$CELTYPE
  6
BYLAYER
  9
$CECOLOR
 62
   256
  9
$DIMSCALE
 40
1.0
  9
$DIMASZ
 40
2.5
  9
$DIMEXO
 40
1.0
  9
$DIMDLI
 40
7.0
  9
$DIMRND
 40
0.0
  9
$DIMDLE
 40
0.0
  9
$DIMEXE
 40
2.0
  9
$DIMTP
 40
0.1
  9
$DIMTM
 40
0.1
  9
$DIMTXT
 40
3.5
  9
$DIMCEN
 40
0.0
  9
$DIMTSZ
 40
0.0
  9
$DIMTOL
 70
     0
  9
$DIMLIM
 70
     0
  9
$DIMTIH
 70
     0
  9
$DIMTOH
 70
     0
  9
$DIMSE1
 70
     0
  9
$DIMSE2
 70
     0
  9
$DIMTAD
 70
     1
  9
$DIMZIN
 70
     0
  9
$DIMBLK
  1

  9
$DIMASO
 70
     1
  9
$DIMSHO
 70
     1
  9
$DIMPOST
  1

  9
$DIMAPOST
  1

  9
$DIMALT
 70
     0
  9
$DIMALTD
 70
     2
  9
$DIMALTF
 40
0.0393701
  9
$DIMLFAC
 40
1.0
  9
$DIMTOFL
 70
     1
  9
$DIMTVP
 40
0.0
  9
$DIMTIX
 70
     0
  9
$DIMSOXD
 70
     0
  9
$DIMSAH
 70
     0
  9
$DIMBLK1
  1

  9
$DIMBLK2
  1

  9
$DIMSTYLE
  2
GEN-ISO
  9
$DIMCLRD
 70
   256
  9
$DIMCLRE
 70
   256
  9
$DIMCLRT
 70
     2
  9
$DIMTFAC
 40
0.71
  9
$DIMGAP
 40
0.6
  9
$LUNITS
 70
     2
  9
$LUPREC
 70
     2
  9
$SKETCHINC
 40
0.1
  9
$FILLETRAD
 40
2.5
  9
$AUNITS
 70
     0
  9
$AUPREC
 70
     0
  9
$MENU
  1

  9
$ELEVATION
 40
0.0
  9
$PELEVATION
 40
0.0
  9
$THICKNESS
 40
0.0
  9
$LIMCHECK
 70
     0
  9
$BLIPMODE
 70
     0
  9
$CHAMFERA
 40
2.5
  9
$CHAMFERB
 40
2.5
  9
$SKPOLY
 70
     0
  9
$TDCREATE
 40
2450261.461637963
  9
$TDUPDATE
 40
2450261.584357638
  9
$TDINDWG
 40
0.0498380787
  9
$TDUSRTIMER
 40
0.0498380787
  9
$USRTIMER
 70
     1
  9
$ANGBASE
 50
0.0
  9
$ANGDIR
 70
     0
  9
$PDMODE
 70
     3
  9
$PDSIZE
 40
0.0
  9
$PLINEWID
 40
0.0
  9
$COORDS
 70
     1
  9
$SPLFRAME
 70
     0
  9
$SPLINETYPE
 70
     6
  9
$SPLINESEGS
 70
     8
  9
$ATTDIA
 70
     1
  9
$ATTREQ
 70
     1
  9
$HANDLING
 70
     1
  9
$HANDSEED
  5
C1
  9
$SURFTAB1
 70
     6
  9
$SURFTAB2
 70
     6
  9
$SURFTYPE
 70
     6
  9
$SURFU
 70
     6
  9
$SURFV
 70
     6
  9
$UCSNAME
  2

  9
$UCSORG
 10
0.0
 20
0.0
 30
0.0
  9
$UCSXDIR
 10
1.0
 20
0.0
 30
0.0
  9
$UCSYDIR
 10
0.0
 20
1.0
 30
0.0
  9
$PUCSNAME
  2

  9
$PUCSORG
 10
0.0
 20
0.0
 30
0.0
  9
$PUCSXDIR
 10
1.0
 20
0.0
 30
0.0
  9
$PUCSYDIR
 10
0.0
 20
1.0
 30
0.0
  9
$USERI1
 70
     0
  9
$USERI2
 70
     0
  9
$USERI3
 70
     0
  9
$USERI4
 70
     0
  9
$USERI5
 70
     0
  9
$USERR1
 40
0.0
  9
$USERR2
 40
0.0
  9
$USERR3
 40
0.0
  9
$USERR4
 40
0.0
  9
$USERR5
 40
0.0
  9
$WORLDVIEW
 70
     1
  9
$SHADEDGE
 70
     3
  9
$SHADEDIF
 70
    70
  9
$TILEMODE
 70
     1
  9
$MAXACTVP
 70
    16
  9
$PINSBASE
 10
0.0
 20
0.0
 30
0.0
  9
$PLIMCHECK
 70
     0
  9
$PEXTMIN
 10
1.000000000000000E+20
 20
1.000000000000000E+20
 30
1.000000000000000E+20
  9
$PEXTMAX
 10
-1.000000000000000E+20
 20
-1.000000000000000E+20
 30
-1.000000000000000E+20
  9
$PLIMMIN
 10
0.0
 20
0.0
  9
$PLIMMAX
 10
12.0
 20
9.0
  9
$UNITMODE
 70
     0
  9
$VISRETAIN
 70
     0
  9
$PLINEGEN
 70
     0
  9
$PSLTSCALE
 70
     1
  9
$TREEDEPTH
 70
  3020
  9
$DWGCODEPAGE
  3
dummy
  0
ENDSEC
  0
SECTION
  2
TABLES
  0
TABLE
  2
VPORT
 70
     2
  0
VPORT
  2
*ACTIVE
 70
     0
 10
0.0
 20
0.0
 11
1.0
 21
1.0
 12
254.6271863175184
 22
146.3433697896826
 13
0.0
 23
0.0
 14
1.0
 24
1.0
 15
10.0
 25
10.0
 16
0.0
 26
0.0
 36
1.0
 17
0.0
 27
0.0
 37
0.0
 40
134.7859531987639
 41
1.451162790697674
 42
50.0
 43
0.0
 44
0.0
 50
0.0
 51
0.0
 71
     0
 72
   100
 73
     1
 74
     0
 75
     0
 76
     0
 77
     0
 78
     0
  0
ENDTAB
  0
TABLE
  2
LTYPE
 70
     2
  0
LTYPE
  2
CONTINUOUS
 70
    64
  3
Solid line
 72
    65
 73
     0
 40
0.0
  0
LTYPE
  2
GEN7
 70
    64
  3
____ . ____ . ____ . ____ . ____ . ____ . ____
 72
    65
 73
     4
 40
15.0
 49
10.0
 49
-2.5
 49
0.0
 49
-2.5
  0
ENDTAB
  0
TABLE
  2
LAYER
 70
     6
  0
LAYER
  2
0
 70
     0
 62
     7
  6
CONTINUOUS
  0
LAYER
  2
ITEM_50
 70
    64
 62
     7
  6
CONTINUOUS
  0
LAYER
  2
ITEM_STPG
 70
    64
 62
     4
  6
GEN7
  0
LAYER
  2
ITEM_GSTRG
 70
    64
 62
     6
  6
CONTINUOUS
  0
LAYER
  2
0N
 70
    64
 62
     7
  6
CONTINUOUS
  0
LAYER
  2
ITEM_25
 70
    64
 62
     3
  6
CONTINUOUS
  0
ENDTAB
  0
TABLE
  2
STYLE
 70
     1
  0
STYLE
  2
STANDARD
 70
     0
 40
0.0
 41
1.0
 50
0.0
 71
     0
 42
0.2
  3
GENISO.SHX
  4

  0
ENDTAB
  0
TABLE
  2
VIEW
 70
     0
  0
ENDTAB
  0
TABLE
  2
UCS
 70
     0
  0
ENDTAB
  0
TABLE
  2
APPID
 70
    11
  0
APPID
  2
ACAD
 70
    64
  0
APPID
  2
GENIUS_GENODEF_13
 70
    64
  0
APPID
  2
GENIUS_GENOREF_13
 70
    64
  0
APPID
  2
GENIUS_GENOBJ-N-FIL_13
 70
    64
  0
ENDTAB
  0
TABLE
  2
DIMSTYLE
 70
     1
  0
DIMSTYLE
  2
GEN-ISO
 70
     0
  3

  4

  5

  6

  7

 40
1.0
 41
2.5
 42
1.0
 43
7.0
 44
2.0
 45
0.0
 46
0.0
 47
0.1
 48
0.1
140
3.5
141
0.0
142
0.0
143
0.0393701
144
1.0
145
0.0
146
0.71
147
0.6
 71
     0
 72
     0
 73
     0
 74
     0
 75
     0
 76
     0
 77
     1
 78
     8
170
     0
171
     2
172
     1
173
     0
174
     0
175
     0
176
   256
177
   256
178
     2
  0
ENDTAB
  0
ENDSEC
  0
SECTION
  2
BLOCKS
  0
ENDSEC
  0
SECTION
  2
ENTITIES
  0
LINE
  8
ITEM_STPG
  5
1D
 10
191.6189990809373
 20
112.5618443533055
 30
0.0
 11
210.1116889542387
 21
112.5618443533055
 31
0.0
  0
LINE
  8
ITEM_GSTRG
  5
20
 10
192.1366889542307
 20
117.8930916543498
 30
0.0
 11
209.1366889542306
 21
117.8930916543499
 31
0.0
  0
LINE
  8
ITEM_50
  5
22
 10
192.1366889542307
 20
115.2873758644438
 30
0.0
 11
200.4198542745558
 21
115.2873758644439
 31
0.0
1001
GENIUS_GENOREF_13
1005
0
  0
LINE
  8
ITEM_50
  5
2D
 10
192.1366889542307
 20
114.6756269381415
 30
0.0
 11
200.0804724306057
 21
114.6756269381416
 31
0.0
1001
GENIUS_GENOREF_13
1005
0
  0
LINE
  8
ITEM_GSTRG
  5
2E
 10
192.1366889542307
 20
107.2305970522612
 30
0.0
 11
209.1366889542306
 21
107.2305970522612
 31
0.0
  0
LINE
  8
ITEM_50
  5
2F
 10
192.1366889542307
 20
110.4474241342699
 30
0.0
 11
200.0807699373797
 21
110.4474241342698
 31
0.0
1001
GENIUS_GENOREF_13
1005
0
  0
LINE
  8
ITEM_50
  5
30
 10
192.1366889542307
 20
109.8356752079675
 30
0.0
 11
200.4202689334095
 21
109.8356752079676
 31
0.0
1001
GENIUS_GENOREF_13
1005
0
  0
LINE
  8
ITEM_50
  5
31
 10
192.1366889542307
 20
115.6618443533055
 30
0.0
 11
192.1366889542307
 21
109.4618443533055
 31
0.0
  0
LINE
  8
ITEM_GSTRG
  5
32
 10
192.1366889542307
 20
109.4618443533055
 30
0.0
 11
192.1366889542307
 21
107.2305970522612
 31
0.0
  0
LINE
  8
ITEM_GSTRG
  5
33
 10
192.1366889542307
 20
117.8930916543498
 30
0.0
 11
192.1366889542307
 21
115.6618443533055
 31
0.0
  0
POLYLINE
  8
0N
  5
34
 66
     1
 10
0.0
 20
0.0
 30
0.0
 70
     1
  0
VERTEX
  8
0N
  5
35
 10
203.7441889542386
 20
114.0643984288715
 30
0.0
  0
VERTEX
  8
0N
  5
37
 10
202.8766889542386
 20
112.5618443533055
 30
0.0
  0
VERTEX
  8
0N
  5
38
 10
203.7441889542386
 20
111.0592902777395
 30
0.0
  0
VERTEX
  8
0N
  5
39
 10
205.4791889542386
 20
111.0592902777395
 30
0.0
  0
VERTEX
  8
0N
  5
3A
 10
206.3466889542386
 20
112.5618443533055
 30
0.0
  0
VERTEX
  8
0N
  5
3B
 10
205.4791889542386
 20
114.0643984288715
 30
0.0
  0
SEQEND
  8
0N
  5
3C
  0
CIRCLE
  8
0N
  5
3D
 10
204.6116889542386
 20
112.5618443533055
 30
0.0
 40
1.735
  0
CIRCLE
  8
0N
  5
3E
 10
204.6116889542386
 20
112.5618443533055
 30
0.0
 40
5.0
  0
LINE
  8
ITEM_STPG
  5
3F
 10
204.6116889542386
 20
118.7376524819302
 30
0.0
 11
204.6116889542386
 21
106.2315042301491
 31
0.0
  0
LINE
  8
ITEM_STPG
  5
40
 10
204.6116889542386
 20
116.1685209350695
 30
0.0
 11
204.6116889542386
 21
108.4361347588768
 31
0.0
  0
LINE
  8
ITEM_GSTRG
  5
41
 10
209.1366889542306
 20
109.4618443533055
 30
0.0
 11
209.1366889542306
 21
107.2305970522612
 31
0.0
  0
LINE
  8
ITEM_50
  5
42
 10
208.8031089750678
 20
109.8356752079676
 30
0.0
 11
209.1366889542306
 21
109.8356752079676
 31
0.0
1001
GENIUS_GENOREF_13
1005
0
  0
LINE
  8
ITEM_50
  5
43
 10
209.1366889542306
 20
110.4347865261479
 30
0.0
 11
209.1366889542306
 21
109.4618443533055
 31
0.0
  0
LINE
  8
ITEM_50
  5
44
 10
208.8035236339214
 20
115.2873758644439
 30
0.0
 11
209.1366889542306
 21
115.2873758644439
 31
0.0
1001
GENIUS_GENOREF_13
1005
0
  0
LINE
  8
ITEM_GSTRG
  5
45
 10
209.1366889542306
 20
117.8930916543498
 30
0.0
 11
209.1366889542306
 21
115.6618443533055
 31
0.0
  0
LINE
  8
ITEM_50
  5
46
 10
209.1366889542306
 20
115.6618443533055
 30
0.0
 11
209.1366889542306
 21
114.6889021804631
 31
0.0
  0
LINE
  8
ITEM_50
  5
47
 10
209.1366889542306
 20
136.0443334677551
 30
0.0
 11
192.1366889542307
 21
136.0443334677551
 31
0.0
  0
LINE
  8
ITEM_50
  5
48
 10
197.0866889542321
 20
129.6357934790081
 30
0.0
 11
192.1366889542307
 21
129.6357934790081
 31
0.0
  0
LINE
  8
ITEM_50
  5
49
 10
192.1366889542307
 20
129.6357934790081
 30
0.0
 11
192.1366889542307
 21
136.0443334677551
 31
0.0
  0
LINE
  8
ITEM_STPG
  5
4A
 10
204.6366889542306
 20
129.5292351957414
 30
0.0
 11
204.6366889542306
 21
144.9081561205382
 31
0.0
  0
LINE
  8
ITEM_50
  5
4B
 10
202.1366889542306
 20
141.3112491092916
 30
0.0
 11
202.1366889542306
 21
136.0443334677551
 31
0.0
  0
LINE
  8
ITEM_50
  5
4C
 10
207.1366889542306
 20
141.3112491092916
 30
0.0
 11
207.1366889542306
 21
136.0443334677551
 31
0.0
  0
LINE
  8
ITEM_25
  5
4D
 10
206.6466889542307
 20
138.9112491092916
 30
0.0
 11
206.6466889542306
 21
136.0443334677551
 31
0.0
  0
LINE
  8
ITEM_25
  5
4F
 10
202.6266889542307
 20
138.9112491092916
 30
0.0
 11
202.6266889542307
 21
136.0443334677551
 31
0.0
  0
LINE
  8
ITEM_50
  5
50
 10
201.8422811379247
 20
129.6357934790081
 30
0.0
 11
200.186688954229
 21
129.6357934790081
 31
0.0
  0
ARC
  8
ITEM_50
  5
51
 10
198.5749969471505
 20
131.1357934790081
 30
0.0
 40
1.500000000000004
 50
227.3547106352979
 51
315.111900193147
  0
ARC
  8
ITEM_50
  5
52
 10
198.6366889542306
 20
128.2702050682416
 30
0.0
 40
2.065752092487085
 50
41.38085082295051
 51
138.6191491770489
  0
LINE
  8
ITEM_50
  5
53
 10
209.1366889542306
 20
129.6357934790081
 30
0.0
 11
209.1366889542306
 21
136.0443334677551
 31
0.0
  0
ARC
  8
ITEM_50
  5
54
 10
204.6366889542306
 20
128.5443334677533
 30
0.0
 40
3.0
 50
21.33498174994233
 51
158.665018250096
  0
LINE
  8
ITEM_50
  5
55
 10
202.6266889542307
 20
130.1112491092916
 30
0.0
 11
206.6466889542307
 21
130.1112491092916
 31
0.0
  0
LINE
  8
ITEM_50
  5
56
 10
202.4528624859426
 20
130.6012491092916
 30
0.0
 11
206.8205154225186
 21
130.6012491092916
 31
0.0
  0
LINE
  8
ITEM_25
  5
57
 10
202.6266889542307
 20
130.7714167621095
 30
0.0
 11
202.6266889542307
 21
130.1112491092916
 31
0.0
  0
LINE
  8
ITEM_50
  5
58
 10
202.6266889542307
 20
130.1112491092916
 30
0.0
 11
202.3054266364929
 21
130.4325114270294
 31
0.0
  0
LINE
  8
ITEM_25
  5
59
 10
206.6466889542307
 20
130.7714167621094
 30
0.0
 11
206.6466889542307
 21
130.1112491092916
 31
0.0
  0
LINE
  8
ITEM_50
  5
5A
 10
209.1366889542306
 20
129.6357934790081
 30
0.0
 11
207.4310967705366
 21
129.6357934790081
 31
0.0
  0
LINE
  8
ITEM_50
  5
5B
 10
206.9679512719684
 20
130.4325114270294
 30
0.0
 11
206.6466889542307
 21
130.1112491092916
 31
0.0
  0
LINE
  8
ITEM_50
  5
5C
 10
199.6366889542306
 20
143.8112491092916
 30
0.0
 11
202.1366889542306
 21
141.3112491092916
 31
0.0
  0
LINE
  8
ITEM_50
  5
5D
 10
209.6366889542307
 20
144.1112491092916
 30
0.0
 11
199.6366889542306
 21
144.1112491092916
 31
0.0
  0
LINE
  8
ITEM_50
  5
5E
 10
209.6366889542307
 20
143.8112491092916
 30
0.0
 11
199.6366889542306
 21
143.8112491092916
 31
0.0
  0
LINE
  8
ITEM_50
  5
5F
 10
199.6366889542306
 20
143.8112491092916
 30
0.0
 11
199.6366889542306
 21
144.1112491092916
 31
0.0
  0
LINE
  8
ITEM_50
  5
60
 10
209.6366889542307
 20
143.8112491092916
 30
0.0
 11
207.1366889542306
 21
141.3112491092916
 31
0.0
  0
LINE
  8
ITEM_50
  5
61
 10
207.1366889542306
 20
141.3112491092916
 30
0.0
 11
202.1366889542306
 21
141.3112491092916
 31
0.0
  0
LINE
  8
ITEM_50
  5
62
 10
202.1366889542306
 20
138.9112491092916
 30
0.0
 11
207.1366889542306
 21
138.9112491092916
 31
0.0
  0
LINE
  8
ITEM_25
  5
63
 10
202.6266889542307
 20
138.9112491092916
 30
0.0
 11
202.1366889542306
 21
140.9112491092916
 31
0.0
  0
LINE
  8
ITEM_25
  5
64
 10
206.6466889542307
 20
138.9112491092916
 30
0.0
 11
207.1366889542306
 21
140.9112491092916
 31
0.0
  0
LINE
  8
ITEM_50
  5
65
 10
209.6366889542307
 20
143.8112491092916
 30
0.0
 11
209.6366889542307
 21
144.1112491092916
 31
0.0
  0
LINE
  8
ITEM_STPG
  5
66
 10
261.1989845985395
 20
112.5618443533055
 30
0.0
 11
242.7062947252381
 21
112.5618443533055
 31
0.0
  0
LINE
  8
ITEM_50
  5
67
 10
228.9089918397384
 20
141.3089301551991
 30
0.0
 11
223.9089918397384
 21
141.3089301551991
 31
0.0
  0
LINE
  8
ITEM_50
  5
68
 10
223.9089918397384
 20
138.9089301551991
 30
0.0
 11
228.9089918397384
 21
138.9089301551991
 31
0.0
  0
LINE
  8
ITEM_50
  5
69
 10
231.4089918397384
 20
144.1089301551991
 30
0.0
 11
221.4089918397384
 21
144.1089301551991
 31
0.0
  0
LINE
  8
ITEM_50
  5
6A
 10
231.4089918397384
 20
143.8089301551991
 30
0.0
 11
221.4089918397384
 21
143.8089301551991
 31
0.0
  0
ARC
  8
ITEM_50
  5
6B
 10
226.4095554326476
 20
131.1208793783806
 30
0.0
 40
1.500000000000004
 50
249.8542497586301
 51
290.227694836029
  0
ARC
  8
ITEM_50
  5
6C
 10
226.4091807218639
 20
131.6448759366592
 30
0.0
 40
2.0
 50
229.2105998981432
 51
310.7894001018566
  0
LINE
  8
ITEM_50
  5
6D
 10
228.2849166531522
 20
135.3448759366592
 30
0.0
 11
224.5330670263242
 21
135.3448759366591
 31
0.0
  0
LINE
  8
ITEM_50
  5
6E
 10
223.9089918397384
 20
141.3089301551991
 30
0.0
 11
223.9089918397384
 21
135.8429180501872
 31
0.0
  0
LINE
  8
ITEM_25
  5
6F
 10
224.3989918397384
 20
138.9089301551991
 30
0.0
 11
224.3989918397384
 21
135.3765033517357
 31
0.0
  0
ARC
  8
ITEM_50
  5
70
 10
235.5551083708969
 20
142.2444989223438
 30
0.0
 40
16.0
 50
205.6116250432181
 51
229.2105998981425
  0
LINE
  8
ITEM_50
  5
71
 10
223.5854973366253
 20
136.0420145136626
 30
0.0
 11
221.5786411133127
 21
136.0443334677551
 31
0.0
  0
ARC
  8
ITEM_50
  5
72
 10
221.5780633557939
 20
135.544333801559
 30
0.0
 40
0.5
 50
89.93379385044701
 51
205.6116250430489
  0
LINE
  8
ITEM_50
  5
73
 10
224.3213916868823
 20
135.4322881884888
 30
0.0
 11
223.796826021556
 21
135.9546024621153
 31
0.0
  0
ARC
  8
ITEM_50
  5
74
 10
224.5330670263242
 20
135.6448759366591
 30
0.0
 40
0.3
 50
225.1232185647646
 51
270.0000000000019
1001
GENIUS_GENODEF_13
1002
{
1000
HIER
1070
     0
1002
}
1002
{
1000
MANEDIT
1070
     0
1002
}
1002
{
1000
NOSEL
1070
     0
1002
}
1002
{
1000
BEHIND
1070
     0
1002
}
1002
{
1000
REACTOR
1002
}
1001
GENIUS_GENOBJ-N-FIL_13
1002
{
1000
OWNER
1000
GEN
1002
}
  0
ARC
  8
ITEM_50
  5
76
 10
223.585150682114
 20
135.742014713945
 30
0.0
 40
0.3
 50
45.12321856476471
 51
89.93379385044788
1001
GENIUS_GENODEF_13
1002
{
1000
HIER
1070
     0
1002
}
1002
{
1000
MANEDIT
1070
     0
1002
}
1002
{
1000
NOSEL
1070
     0
1002
}
1002
{
1000
BEHIND
1070
     0
1002
}
1002
{
1000
REACTOR
1002
}
1001
GENIUS_GENOBJ-N-FIL_13
1002
{
1000
OWNER
1000
GEN
1002
}
  0
LINE
  8
ITEM_50
  5
77
 10
221.4089918397384
 20
143.8089301551991
 30
0.0
 11
223.9089918397384
 21
141.3089301551991
 31
0.0
  0
LINE
  8
ITEM_25
  5
78
 10
224.3989918397384
 20
138.9089301551991
 30
0.0
 11
223.9089918397384
 21
140.9089301551991
 31
0.0
  0
LINE
  8
ITEM_50
  5
79
 10
221.4089918397384
 20
143.8089301551991
 30
0.0
 11
221.4089918397384
 21
144.1089301551991
 31
0.0
  0
LINE
  8
ITEM_25
  5
7A
 10
228.4189918397384
 20
138.9089301551991
 30
0.0
 11
228.4189918397383
 21
135.376503351736
 31
0.0
  0
LINE
  8
ITEM_50
  5
7B
 10
228.9089918397384
 20
141.3089301551991
 30
0.0
 11
228.9089918397383
 21
135.8446870545311
 31
0.0
  0
LINE
  8
ITEM_STPG
  5
7C
 10
226.4089918397384
 20
144.9673616471704
 30
0.0
 11
226.4089918397384
 21
129.1185778180319
 31
0.0
  0
ARC
  8
ITEM_50
  5
7D
 10
217.2632530728308
 20
142.2444989223438
 30
0.0
 40
16.0
 50
310.7894001018574
 51
334.390597298083
  0
LINE
  8
ITEM_50
  5
7E
 10
231.2405579578825
 20
136.0448759366591
 30
0.0
 11
229.2334447905789
 21
136.0448759366591
 31
0.0
  0
LINE
  8
ITEM_50
  5
7F
 10
229.0213127562235
 20
135.9570079710157
 30
0.0
 11
228.4970486875076
 21
135.4327439023027
 31
0.0
  0
ARC
  8
ITEM_50
  5
80
 10
229.2334447905789
 20
135.7448759366591
 30
0.0
 40
0.3
 50
90.0000000000009
 51
134.9999999998389
1001
GENIUS_GENODEF_13
1002
{
1000
HIER
1070
     0
1002
}
1002
{
1000
MANEDIT
1070
     0
1002
}
1002
{
1000
NOSEL
1070
     0
1002
}
1002
{
1000
BEHIND
1070
     0
1002
}
1002
{
1000
REACTOR
1002
}
1001
GENIUS_GENOBJ-N-FIL_13
1002
{
1000
OWNER
1000
GEN
1002
}
  0
ARC
  8
ITEM_50
  5
81
 10
228.2849166531522
 20
135.6448759366593
 30
0.0
 40
0.3
 50
270.000000000002
 51
314.9999999998388
1001
GENIUS_GENODEF_13
1002
{
1000
HIER
1070
     0
1002
}
1002
{
1000
MANEDIT
1070
     0
1002
}
1002
{
1000
NOSEL
1070
     0
1002
}
1002
{
1000
BEHIND
1070
     0
1002
}
1002
{
1000
REACTOR
1002
}
1001
GENIUS_GENOBJ-N-FIL_13
1002
{
1000
OWNER
1000
GEN
1002
}
  0
ARC
  8
ITEM_50
  5
82
 10
231.2405579578825
 20
135.5448759366592
 30
0.0
 40
0.5
 50
334.3905972982506
 51
90.0
  0
LINE
  8
ITEM_50
  5
83
 10
231.4089918397384
 20
143.8089301551991
 30
0.0
 11
228.9089918397384
 21
141.3089301551991
 31
0.0
  0
LINE
  8
ITEM_25
  5
84
 10
228.4189918397384
 20
138.9089301551991
 30
0.0
 11
228.9089918397384
 21
140.9089301551991
 31
0.0
  0
LINE
  8
ITEM_50
  5
85
 10
231.4089918397384
 20
143.8089301551991
 30
0.0
 11
231.4089918397384
 21
144.1089301551991
 31
0.0
  0
LINE
  8
ITEM_50
  5
86
 10
260.6812947252461
 20
115.2873758644438
 30
0.0
 11
252.398129404921
 21
115.2873758644439
 31
0.0
1001
GENIUS_GENOREF_13
1005
0
  0
LINE
  8
ITEM_50
  5
87
 10
260.6812947252461
 20
114.6756269381415
 30
0.0
 11
252.737511248871
 21
114.6756269381416
 31
0.0
1001
GENIUS_GENOREF_13
1005
0
  0
LINE
  8
ITEM_50
  5
88
 10
260.6812947252461
 20
109.8356752079675
 30
0.0
 11
252.3977147460673
 21
109.8356752079676
 31
0.0
1001
GENIUS_GENOREF_13
1005
0
  0
LINE
  8
ITEM_50
  5
89
 10
260.6812947252461
 20
110.4474241342699
 30
0.0
 11
252.737213742097
 21
110.4474241342698
 31
0.0
1001
GENIUS_GENOREF_13
1005
0
  0
LINE
  8
ITEM_GSTRG
  5
8A
 10
260.6812947252461
 20
117.8930916543498
 30
0.0
 11
243.6812947252462
 21
117.8930916543499
 31
0.0
  0
LINE
  8
ITEM_GSTRG
  5
8B
 10
260.6812947252461
 20
107.2305970522612
 30
0.0
 11
243.6812947252462
 21
107.2305970522612
 31
0.0
  0
CIRCLE
  8
0N
  5
8C
 10
248.2062947252381
 20
112.5618443533055
 30
0.0
 40
5.0
  0
CIRCLE
  8
0N
  5
8D
 10
248.2062947252381
 20
112.5618443533055
 30
0.0
 40
1.735
  0
POLYLINE
  8
0N
  5
8E
 66
     1
 10
0.0
 20
0.0
 30
0.0
 70
     1
  0
VERTEX
  8
0N
  5
8F
 10
249.0737947252382
 20
114.0643984288715
 30
0.0
  0
VERTEX
  8
0N
  5
90
 10
249.9412947252381
 20
112.5618443533055
 30
0.0
  0
VERTEX
  8
0N
  5
91
 10
249.0737947252382
 20
111.0592902777395
 30
0.0
  0
VERTEX
  8
0N
  5
92
 10
247.3387947252382
 20
111.0592902777395
 30
0.0
  0
VERTEX
  8
0N
  5
93
 10
246.4712947252381
 20
112.5618443533055
 30
0.0
  0
VERTEX
  8
0N
  5
94
 10
247.3387947252382
 20
114.0643984288715
 30
0.0
  0
SEQEND
  8
0N
  5
95
  0
LINE
  8
ITEM_STPG
  5
96
 10
248.2062947252381
 20
118.7376524819302
 30
0.0
 11
248.2062947252381
 21
105.8994825951461
 31
0.0
  0
LINE
  8
ITEM_STPG
  5
97
 10
248.2062947252381
 20
116.1685209350695
 30
0.0
 11
248.2062947252381
 21
108.4361347588768
 31
0.0
  0
LINE
  8
ITEM_GSTRG
  5
98
 10
243.6812947252462
 20
109.4618443533055
 30
0.0
 11
243.6812947252462
 21
107.2305970522612
 31
0.0
  0
LINE
  8
ITEM_50
  5
99
 10
244.014874704409
 20
109.8356752079676
 30
0.0
 11
243.6812947252462
 21
109.8356752079676
 31
0.0
1001
GENIUS_GENOREF_13
1005
0
  0
LINE
  8
ITEM_50
  5
9A
 10
243.6812947252462
 20
110.4347865261479
 30
0.0
 11
243.6812947252462
 21
109.4618443533055
 31
0.0
  0
LINE
  8
ITEM_50
  5
9B
 10
244.0144600455553
 20
115.2873758644439
 30
0.0
 11
243.6812947252462
 21
115.2873758644439
 31
0.0
1001
GENIUS_GENOREF_13
1005
0
  0
LINE
  8
ITEM_50
  5
9C
 10
243.6812947252462
 20
115.6618443533055
 30
0.0
 11
243.6812947252462
 21
114.6889021804631
 31
0.0
  0
LINE
  8
ITEM_GSTRG
  5
9D
 10
243.6812947252462
 20
117.8930916543498
 30
0.0
 11
243.6812947252462
 21
115.6618443533055
 31
0.0
  0
LINE
  8
ITEM_50
  5
9E
 10
260.6812947252461
 20
115.6618443533055
 30
0.0
 11
260.6812947252461
 21
109.4618443533055
 31
0.0
  0
LINE
  8
ITEM_GSTRG
  5
9F
 10
260.6812947252461
 20
109.4618443533055
 30
0.0
 11
260.6812947252461
 21
107.2305970522612
 31
0.0
  0
LINE
  8
ITEM_GSTRG
  5
A0
 10
260.6812947252461
 20
117.8930916543498
 30
0.0
 11
260.6812947252461
 21
115.6618443533055
 31
0.0
  0
LINE
  8
ITEM_50
  5
A1
 10
255.7312947252447
 20
129.6357934790081
 30
0.0
 11
260.6812947252461
 21
129.6357934790081
 31
0.0
  0
LINE
  8
ITEM_50
  5
A2
 10
243.6812947252462
 20
136.0443334677551
 30
0.0
 11
260.6812947252461
 21
136.0443334677551
 31
0.0
  0
LINE
  8
ITEM_STPG
  5
A3
 10
248.1812947252461
 20
129.3461527160467
 30
0.0
 11
248.1812947252461
 21
144.8471286273066
 31
0.0
  0
LINE
  8
ITEM_50
  5
A4
 10
250.6812947252461
 20
141.3112491092916
 30
0.0
 11
250.6812947252461
 21
136.0443334677551
 31
0.0
  0
LINE
  8
ITEM_25
  5
A5
 10
250.1912947252461
 20
138.9112491092916
 30
0.0
 11
250.1912947252461
 21
136.0443334677551
 31
0.0
  0
LINE
  8
ITEM_25
  5
A6
 10
246.1712947252461
 20
138.9112491092916
 30
0.0
 11
246.1712947252462
 21
136.0443334677551
 31
0.0
  0
LINE
  8
ITEM_50
  5
A7
 10
245.6812947252462
 20
141.3112491092916
 30
0.0
 11
245.6812947252462
 21
136.0443334677551
 31
0.0
  0
LINE
  8
ITEM_50
  5
A8
 10
250.9757025415521
 20
129.6357934790081
 30
0.0
 11
252.6312947252478
 21
129.6357934790081
 31
0.0
  0
ARC
  8
ITEM_50
  5
A9
 10
248.1812947252461
 20
128.5443334677533
 30
0.0
 40
3.0
 50
21.33498174990387
 51
158.6650182500577
  0
LINE
  8
ITEM_50
  5
AA
 10
243.6812947252462
 20
129.6357934790081
 30
0.0
 11
243.6812947252462
 21
136.0443334677551
 31
0.0
  0
LINE
  8
ITEM_50
  5
AB
 10
250.1912947252461
 20
130.1112491092916
 30
0.0
 11
246.1712947252461
 21
130.1112491092916
 31
0.0
  0
LINE
  8
ITEM_50
  5
AC
 10
250.3651211935341
 20
130.6012491092916
 30
0.0
 11
245.9974682569582
 21
130.6012491092916
 31
0.0
  0
LINE
  8
ITEM_50
  5
AD
 10
243.6812947252462
 20
129.6357934790081
 30
0.0
 11
245.3868869089402
 21
129.6357934790081
 31
0.0
  0
LINE
  8
ITEM_25
  5
AE
 10
246.1712947252461
 20
130.7714167621094
 30
0.0
 11
246.1712947252461
 21
130.1112491092916
 31
0.0
  0
LINE
  8
ITEM_50
  5
AF
 10
245.8500324075084
 20
130.4325114270294
 30
0.0
 11
246.1712947252461
 21
130.1112491092916
 31
0.0
  0
LINE
  8
ITEM_25
  5
B0
 10
250.1912947252461
 20
130.7714167621095
 30
0.0
 11
250.1912947252461
 21
130.1112491092916
 31
0.0
  0
LINE
  8
ITEM_50
  5
B1
 10
250.1912947252461
 20
130.1112491092916
 30
0.0
 11
250.5125570429839
 21
130.4325114270294
 31
0.0
  0
ARC
  8
ITEM_50
  5
B2
 10
254.1812947252461
 20
128.2702050682416
 30
0.0
 40
2.065752092487085
 50
41.38085082295106
 51
138.6191491770494
  0
ARC
  8
ITEM_50
  5
B3
 10
254.2429867323263
 20
131.1357934790081
 30
0.0
 40
1.500000000000004
 50
224.8880998068529
 51
312.6452893647021
  0
LINE
  8
ITEM_50
  5
B4
 10
253.1812947252461
 20
143.8112491092916
 30
0.0
 11
250.6812947252461
 21
141.3112491092916
 31
0.0
  0
LINE
  8
ITEM_50
  5
B5
 10
243.1812947252461
 20
144.1112491092916
 30
0.0
 11
253.1812947252461
 21
144.1112491092916
 31
0.0
  0
LINE
  8
ITEM_50
  5
B6
 10
243.1812947252461
 20
143.8112491092916
 30
0.0
 11
253.1812947252461
 21
143.8112491092916
 31
0.0
  0
LINE
  8
ITEM_50
  5
B7
 10
243.1812947252461
 20
143.8112491092916
 30
0.0
 11
245.6812947252462
 21
141.3112491092916
 31
0.0
  0
LINE
  8
ITEM_50
  5
B8
 10
245.6812947252462
 20
141.3112491092916
 30
0.0
 11
250.6812947252461
 21
141.3112491092916
 31
0.0
  0
LINE
  8
ITEM_50
  5
B9
 10
250.6812947252461
 20
138.9112491092916
 30
0.0
 11
245.6812947252462
 21
138.9112491092916
 31
0.0
  0
LINE
  8
ITEM_25
  5
BA
 10
246.1712947252461
 20
138.9112491092916
 30
0.0
 11
245.6812947252462
 21
140.9112491092916
 31
0.0
  0
LINE
  8
ITEM_25
  5
BB
 10
250.1912947252461
 20
138.9112491092916
 30
0.0
 11
250.6812947252461
 21
140.9112491092916
 31
0.0
  0
LINE
  8
ITEM_50
  5
BC
 10
243.1812947252461
 20
143.8112491092916
 30
0.0
 11
243.1812947252461
 21
144.1112491092916
 31
0.0
  0
LINE
  8
ITEM_50
  5
BD
 10
253.1812947252461
 20
143.8112491092916
 30
0.0
 11
253.1812947252461
 21
144.1112491092916
 31
0.0
  0
LINE
  8
ITEM_50
  5
BE
 10
260.6812947252461
 20
129.6357934790081
 30
0.0
 11
260.6812947252461
 21
136.0443334677551
 31
0.0
  0
ENDSEC
  0
EOF
